  0
SECTION
  2
HEADER
  9
$ACADVER
  1
AC1015
  9
$ACADMAINTVER
 70
     6
  9
$DWGCODEPAGE
  3
ANSI_1254
  9
$INSBASE
 10
0.0
 20
0.0
 30
0.0
  9
$EXTMIN
 10
0.0
 20
0.0
 30
0.0
  9
$EXTMAX
 10
279.4
 20
215.9
 30
0.0
  9
$LIMMIN
 10
0.0
 20
0.0
  9
$LIMMAX
 10
279.4
 20
215.9
  9
$ORTHOMODE
 70
     0
  9
$REGENMODE
 70
     1
  9
$FILLMODE
 70
     1
  9
$QTEXTMODE
 70
     0
  9
$MIRRTEXT
 70
     1
  9
$LTSCALE
 40
1.0
  9
$ATTMODE
 70
     1
  9
$TEXTSIZE
 40
3.5
  9
$TRACEWID
 40
1.0
  9
$TEXTSTYLE
  7
Standard
  9
$CLAYER
  8
0
  9
$CELTYPE
  6
ByLayer
  9
$CECOLOR
 62
   256
  9
$CELTSCALE
 40
1.0
  9
$DISPSILH
 70
     0
  9
$DIMSCALE
 40
1.0
  9
$DIMASZ
 40
3.5
  9
$DIMEXO
 40
1.0
  9
$DIMDLI
 40
3.75
  9
$DIMRND
 40
0.0
  9
$DIMDLE
 40
0.0
  9
$DIMEXE
 40
1.0
  9
$DIMTP
 40
0.0
  9
$DIMTM
 40
0.0
  9
$DIMTXT
 40
3.5
  9
$DIMCEN
 40
2.5
  9
$DIMTSZ
 40
0.0
  9
$DIMTOL
 70
     0
  9
$DIMLIM
 70
     0
  9
$DIMTIH
 70
     1
  9
$DIMTOH
 70
     1
  9
$DIMSE1
 70
     0
  9
$DIMSE2
 70
     0
  9
$DIMTAD
 70
     1
  9
$DIMZIN
 70
     0
  9
$DIMBLK
  1

  9
$DIMASO
 70
     1
  9
$DIMSHO
 70
     1
  9
$DIMPOST
  1

  9
$DIMAPOST
  1

  9
$DIMALT
 70
     0
  9
$DIMALTD
 70
     3
  9
$DIMALTF
 40
0.0393700787
  9
$DIMLFAC
 40
1.0
  9
$DIMTOFL
 70
     1
  9
$DIMTVP
 40
0.0
  9
$DIMTIX
 70
     0
  9
$DIMSOXD
 70
     0
  9
$DIMSAH
 70
     0
  9
$DIMBLK1
  1

  9
$DIMBLK2
  1

  9
$DIMSTYLE
  2
ISO-25
  9
$DIMCLRD
 70
     0
  9
$DIMCLRE
 70
     0
  9
$DIMCLRT
 70
     0
  9
$DIMTFAC
 40
1.0
  9
$DIMGAP
 40
1.524
  9
$DIMJUST
 70
     0
  9
$DIMSD1
 70
     0
  9
$DIMSD2
 70
     0
  9
$DIMTOLJ
 70
     0
  9
$DIMTZIN
 70
     0
  9
$DIMALTZ
 70
     0
  9
$DIMALTTZ
 70
     0
  9
$DIMUPT
 70
     0
  9
$DIMDEC
 70
     2
  9
$DIMTDEC
 70
     2
  9
$DIMALTU
 70
     2
  9
$DIMALTTD
 70
     3
  9
$DIMTXSTY
  7
Standard
  9
$DIMAUNIT
 70
     0
  9
$DIMADEC
 70
     2
  9
$DIMALTRND
 40
0.0
  9
$DIMAZIN
 70
     0
  9
$DIMDSEP
 70
    44
  9
$DIMATFIT
 70
     3
  9
$DIMFRAC
 70
     0
  9
$DIMLDRBLK
  1

  9
$DIMLUNIT
 70
     2
  9
$DIMLWD
 70
    -2
  9
$DIMLWE
 70
    -2
  9
$DIMTMOVE
 70
     0
  9
$LUNITS
 70
     2
  9
$LUPREC
 70
     2
  9
$SKETCHINC
 40
1.0
  9
$FILLETRAD
 40
10.0
  9
$AUNITS
 70
     0
  9
$AUPREC
 70
     2
  9
$MENU
  1
.
  9
$ELEVATION
 40
0.0
  9
$PELEVATION
 40
0.0
  9
$THICKNESS
 40
0.0
  9
$LIMCHECK
 70
     0
  9
$CHAMFERA
 40
0.0
  9
$CHAMFERB
 40
0.0
  9
$CHAMFERC
 40
0.0
  9
$CHAMFERD
 40
0.0
  9
$SKPOLY
 70
     0
  9
$TDCREATE
 40
2459921.536932824
  9
$TDUCREATE
 40
2459921.411932824
  9
$TDUPDATE
 40
2459921.536933009
  9
$TDUUPDATE
 40
2459921.411933009
  9
$TDINDWG
 40
0.0000000116
  9
$TDUSRTIMER
 40
0.0000000116
  9
$USRTIMER
 70
     1
  9
$ANGBASE
 50
0.0
  9
$ANGDIR
 70
     0
  9
$PDMODE
 70
     0
  9
$PDSIZE
 40
-1.0
  9
$PLINEWID
 40
0.0
  9
$SPLFRAME
 70
     0
  9
$SPLINETYPE
 70
     6
  9
$SPLINESEGS
 70
     8
  9
$HANDSEED
  5
CC
  9
$SURFTAB1
 70
     6
  9
$SURFTAB2
 70
     6
  9
$SURFTYPE
 70
     6
  9
$SURFU
 70
     6
  9
$SURFV
 70
     6
  9
$UCSBASE
  2

  9
$UCSNAME
  2

  9
$UCSORG
 10
0.0
 20
0.0
 30
0.0
  9
$UCSXDIR
 10
1.0
 20
0.0
 30
0.0
  9
$UCSYDIR
 10
0.0
 20
1.0
 30
0.0
  9
$UCSORTHOREF
  2

  9
$UCSORTHOVIEW
 70
     0
  9
$UCSORGTOP
 10
0.0
 20
0.0
 30
0.0
  9
$UCSORGBOTTOM
 10
0.0
 20
0.0
 30
0.0
  9
$UCSORGLEFT
 10
0.0
 20
0.0
 30
0.0
  9
$UCSORGRIGHT
 10
0.0
 20
0.0
 30
0.0
  9
$UCSORGFRONT
 10
0.0
 20
0.0
 30
0.0
  9
$UCSORGBACK
 10
0.0
 20
0.0
 30
0.0
  9
$PUCSBASE
  2

  9
$PUCSNAME
  2

  9
$PUCSORG
 10
0.0
 20
0.0
 30
0.0
  9
$PUCSXDIR
 10
1.0
 20
0.0
 30
0.0
  9
$PUCSYDIR
 10
0.0
 20
1.0
 30
0.0
  9
$PUCSORTHOREF
  2

  9
$PUCSORTHOVIEW
 70
     0
  9
$PUCSORGTOP
 10
0.0
 20
0.0
 30
0.0
  9
$PUCSORGBOTTOM
 10
0.0
 20
0.0
 30
0.0
  9
$PUCSORGLEFT
 10
0.0
 20
0.0
 30
0.0
  9
$PUCSORGRIGHT
 10
0.0
 20
0.0
 30
0.0
  9
$PUCSORGFRONT
 10
0.0
 20
0.0
 30
0.0
  9
$PUCSORGBACK
 10
0.0
 20
0.0
 30
0.0
  9
$USERI1
 70
     0
  9
$USERI2
 70
     0
  9
$USERI3
 70
     0
  9
$USERI4
 70
     0
  9
$USERI5
 70
     0
  9
$USERR1
 40
0.0
  9
$USERR2
 40
0.0
  9
$USERR3
 40
0.0
  9
$USERR4
 40
0.0
  9
$USERR5
 40
0.0
  9
$WORLDVIEW
 70
     1
  9
$SHADEDGE
 70
     3
  9
$SHADEDIF
 70
    70
  9
$TILEMODE
 70
     1
  9
$MAXACTVP
 70
    64
  9
$PINSBASE
 10
0.0
 20
0.0
 30
0.0
  9
$PLIMCHECK
 70
     0
  9
$PEXTMIN
 10
1.0000000000E+20
 20
1.0000000000E+20
 30
1.0000000000E+20
  9
$PEXTMAX
 10
-1.0000000000E+20
 20
-1.0000000000E+20
 30
-1.0000000000E+20
  9
$PLIMMIN
 10
0.0
 20
0.0
  9
$PLIMMAX
 10
420.0
 20
297.0
  9
$UNITMODE
 70
     0
  9
$VISRETAIN
 70
     1
  9
$PLINEGEN
 70
     0
  9
$PSLTSCALE
 70
     1
  9
$TREEDEPTH
 70
  3020
  9
$CMLSTYLE
  2
Standard
  9
$CMLJUST
 70
     0
  9
$CMLSCALE
 40
20.0
  9
$PROXYGRAPHICS
 70
     1
  9
$MEASUREMENT
 70
     1
  9
$CELWEIGHT
370
    -1
  9
$ENDCAPS
280
     0
  9
$JOINSTYLE
280
     0
  9
$LWDISPLAY
290
     1
  9
$INSUNITS
 70
     4
  9
$HYPERLINKBASE
  1

  9
$STYLESHEET
  1

  9
$XEDIT
290
     1
  9
$CEPSNTYPE
380
     0
  9
$PSTYLEMODE
290
     1
  9
$FINGERPRINTGUID
  2
{70112e64-902a-416a-9aed-b540017437ab}
  9
$VERSIONGUID
  2
{FAEB1C32-E019-11D5-929B-00C0DF256EC4}
  9
$EXTNAMES
290
     1
  9
$PSVPSCALE
 40
0.0
  9
$OLESTARTUP
290
     0
  0
ENDSEC
  0
SECTION
  2
CLASSES
  0
CLASS
  1
ACDBDICTIONARYWDFLT
  2
AcDbDictionaryWithDefault
  3
ObjectDBX Classes
 90
        0
280
     0
281
     0
  0
CLASS
  1
VISUALSTYLE
  2
AcDbVisualStyle
  3
ObjectDBX Classes
 90
     4095
280
     0
281
     0
  0
CLASS
  1
MATERIAL
  2
AcDbMaterial
  3
ObjectDBX Classes
 90
     1153
280
     0
281
     0
  0
CLASS
  1
SCALE
  2
AcDbScale
  3
ObjectDBX Classes
 90
     1153
280
     0
281
     0
  0
CLASS
  1
TABLESTYLE
  2
AcDbTableStyle
  3
ObjectDBX Classes
 90
     4095
280
     0
281
     0
  0
CLASS
  1
MLEADERSTYLE
  2
AcDbMLeaderStyle
  3
ACDB_MLEADERSTYLE_CLASS
 90
     4095
280
     0
281
     0
  0
CLASS
  1
SUN
  2
AcDbSun
  3
SCENEOE
 90
     1153
280
     0
281
     0
  0
CLASS
  1
ACDBPLACEHOLDER
  2
AcDbPlaceHolder
  3
ObjectDBX Classes
 90
        0
280
     0
281
     0
  0
CLASS
  1
LAYOUT
  2
AcDbLayout
  3
ObjectDBX Classes
 90
        0
280
     0
281
     0
  0
ENDSEC
  0
SECTION
  2
TABLES
  0
TABLE
  2
VPORT
  5
8
330
0
100
AcDbSymbolTable
 70
     1
  0
VPORT
  5
29
330
8
100
AcDbSymbolTableRecord
100
AcDbViewportTableRecord
  2
*Active
 70
     0
 10
0.0
 20
0.0
 11
1.0
 21
1.0
 12
139.7
 22
107.95
 13
0.0
 23
0.0
 14
10.0
 24
10.0
 15
10.0
 25
10.0
 16
0.0
 26
0.0
 36
1.0
 17
0.0
 27
0.0
 37
0.0
 40
215.9
 41
1.2941176471
 42
50.0
 43
0.0
 44
0.0
 50
0.0
 51
0.0
 71
     0
 72
  2000
 73
     1
 74
     3
 75
     0
 76
     0
 77
     0
 78
     0
281
     0
 65
     1
110
0.0
120
0.0
130
0.0
111
1.0
121
0.0
131
0.0
112
0.0
122
1.0
132
0.0
 79
     0
146
0.0
  0
ENDTAB
  0
TABLE
  2
LTYPE
  5
5
330
0
100
AcDbSymbolTable
 70
     6
  0
LTYPE
  5
14
330
5
100
AcDbSymbolTableRecord
100
AcDbLinetypeTableRecord
  2
ByBlock
 70
     0
  3

 72
    65
 73
     0
 40
0.0
  0
LTYPE
  5
15
330
5
100
AcDbSymbolTableRecord
100
AcDbLinetypeTableRecord
  2
ByLayer
 70
     0
  3

 72
    65
 73
     0
 40
0.0
  0
LTYPE
  5
16
330
5
100
AcDbSymbolTableRecord
100
AcDbLinetypeTableRecord
  2
Continuous
 70
     0
  3
Solid line
 72
    65
 73
     0
 40
0.0
  0
LTYPE
  5
6E
330
5
100
AcDbSymbolTableRecord
100
AcDbLinetypeTableRecord
  2
HIDDEN
 70
     0
  3
Hidden __ __ __ __ __ __ __ __ __ __ __ __ __ __
 72
    65
 73
     2
 40
1.905
 49
1.27
 74
     0
 49
-0.635
 74
     0
  0
LTYPE
  5
6F
330
5
100
AcDbSymbolTableRecord
100
AcDbLinetypeTableRecord
  2
PHANTOM
 70
     0
  3
Phantom ______  __  __  ______  __  __  ______
 72
    65
 73
     6
 40
12.7
 49
6.35
 74
     0
 49
-1.27
 74
     0
 49
1.27
 74
     0
 49
-1.27
 74
     0
 49
1.27
 74
     0
 49
-1.27
 74
     0
  0
LTYPE
  5
70
330
5
100
AcDbSymbolTableRecord
100
AcDbLinetypeTableRecord
  2
CENTER
 70
     0
  3
Center ____ _ ____ _ ____ _ ____ _ ____ _ ____
 72
    65
 73
     4
 40
10.16
 49
6.35
 74
     0
 49
-1.27
 74
     0
 49
1.27
 74
     0
 49
-1.27
 74
     0
  0
LTYPE
  5
71
330
5
100
AcDbSymbolTableRecord
100
AcDbLinetypeTableRecord
  2
CENTERX2
 70
     0
  3
Center (2x) ________  __  ________  __  _____
 72
    65
 73
     4
 40
20.32
 49
12.7
 74
     0
 49
-2.54
 74
     0
 49
2.54
 74
     0
 49
-2.54
 74
     0
  0
LTYPE
  5
72
330
5
100
AcDbSymbolTableRecord
100
AcDbLinetypeTableRecord
  2
DOT2
 70
     0
  3
Dot (.5x) ........................................
 72
    65
 73
     2
 40
0.635
 49
0.0
 74
     0
 49
-0.635
 74
     0
  0
ENDTAB
  0
TABLE
  2
LAYER
  5
2
330
0
100
AcDbSymbolTable
 70
    17
  0
LAYER
  5
10
330
2
100
AcDbSymbolTableRecord
100
AcDbLayerTableRecord
  2
0
 70
     0
 62
     7
  6
Continuous
370
    -3
390
F
  0
LAYER
  5
73
330
2
100
AcDbSymbolTableRecord
100
AcDbLayerTableRecord
  2
FORMAT
 70
     0
 62
     7
  6
Continuous
370
    -3
390
F
  0
LAYER
  5
74
330
2
100
AcDbSymbolTableRecord
100
AcDbLayerTableRecord
  2
YARDIMCI_GEOMETRI
 70
     0
 62
    -6
  6
Continuous
290
     0
370
    -3
390
F
  0
LAYER
  5
75
330
2
100
AcDbSymbolTableRecord
100
AcDbLayerTableRecord
  2
SAYFA_CERCEVESI
 70
     0
 62
     7
  6
Continuous
370
    25
390
F
  0
LAYER
  5
76
330
2
100
AcDbSymbolTableRecord
100
AcDbLayerTableRecord
  2
ANTET
 70
     0
 62
     7
  6
Continuous
370
    -3
390
F
  0
LAYER
  5
77
330
2
100
AcDbSymbolTableRecord
100
AcDbLayerTableRecord
  2
OLCU
 70
     0
 62
   150
  6
Continuous
370
    -3
390
F
  0
LAYER
  5
78
330
2
100
AcDbSymbolTableRecord
100
AcDbLayerTableRecord
  2
METIN
 70
     0
 62
    96
  6
Continuous
370
    -3
390
F
  0
LAYER
  5
79
330
2
100
AcDbSymbolTableRecord
100
AcDbLayerTableRecord
  2
BALON
 70
     0
 62
     5
  6
Continuous
370
    -3
390
F
  0
LAYER
  5
7A
330
2
100
AcDbSymbolTableRecord
100
AcDbLayerTableRecord
  2
VURGU
 70
     0
 62
     7
  6
Continuous
370
    -3
390
F
  0
LAYER
  5
7B
330
2
100
AcDbSymbolTableRecord
100
AcDbLayerTableRecord
  2
SILIK
 70
     0
 62
     7
  6
Continuous
370
    -3
390
F
  0
LAYER
  5
7C
330
2
100
AcDbSymbolTableRecord
100
AcDbLayerTableRecord
  2
MODEL
 70
     0
 62
     7
  6
Continuous
370
    -3
390
F
  0
LAYER
  5
7D
330
2
100
AcDbSymbolTableRecord
100
AcDbLayerTableRecord
  2
DETAYLANDıRMA
 70
     0
 62
   190
  6
Continuous
370
    -3
390
F
  0
LAYER
  5
7E
330
2
100
AcDbSymbolTableRecord
100
AcDbLayerTableRecord
  2
TOLERANS
 70
     0
 62
   230
  6
Continuous
370
    -3
390
F
  0
LAYER
  5
7F
330
2
100
AcDbSymbolTableRecord
100
AcDbLayerTableRecord
  2
MERKEZ_CIZGILERI
 70
     0
 62
    30
  6
Continuous
370
    -3
390
F
  0
LAYER
  5
80
330
2
100
AcDbSymbolTableRecord
100
AcDbLayerTableRecord
  2
KESIT-DETAY_CIZGILERI
 70
     0
 62
     7
  6
Continuous
370
    -3
390
F
  0
LAYER
  5
81
330
2
100
AcDbSymbolTableRecord
100
AcDbLayerTableRecord
  2
\U+041E\U+0421\U+0415\U+0412\U+042B\U+0415
 70
     0
 62
     7
  6
Continuous
370
    -3
390
F
  0
LAYER
  5
82
330
2
100
AcDbSymbolTableRecord
100
AcDbLayerTableRecord
  2
\U+0412\U+041E\U+0414\U+042F\U+041D\U+042B\U+0415_\U+0417\U+041D\U+0410\U+041A\U+0418
 70
     0
 62
    11
  6
Continuous
370
    -3
390
F
  0
ENDTAB
  0
TABLE
  2
STYLE
  5
3
330
0
100
AcDbSymbolTable
 70
     1
  0
STYLE
  5
11
330
3
100
AcDbSymbolTableRecord
100
AcDbTextStyleTableRecord
  2
Standard
 70
     0
 40
0.0
 41
1.0
 50
0.0
 71
     0
 42
3.5
  3
txt
  4

  0
ENDTAB
  0
TABLE
  2
VIEW
  5
6
330
0
100
AcDbSymbolTable
 70
     0
  0
ENDTAB
  0
TABLE
  2
UCS
  5
7
330
0
100
AcDbSymbolTable
 70
     0
  0
ENDTAB
  0
TABLE
  2
APPID
  5
9
330
0
100
AcDbSymbolTable
 70
     1
  0
APPID
  5
12
330
9
100
AcDbSymbolTableRecord
100
AcDbRegAppTableRecord
  2
ACAD
 70
     0
  0
ENDTAB
  0
TABLE
  2
DIMSTYLE
  5
A
330
0
100
AcDbSymbolTable
 70
     1
100
AcDbDimStyleTable
  0
DIMSTYLE
105
27
330
A
100
AcDbSymbolTableRecord
100
AcDbDimStyleTableRecord
  2
ISO-25
 70
     0
 41
2.5
 42
0.625
 43
3.75
 44
1.25
 73
     0
 74
     0
 77
     1
 78
     8
140
2.5
141
2.5
143
0.0393700787
147
0.625
171
     3
172
     1
178
     0
271
     2
272
     2
274
     3
278
    44
283
     0
284
     8
340
11
  0
ENDTAB
  0
TABLE
  2
BLOCK_RECORD
  5
1
330
0
100
AcDbSymbolTable
 70
     3
  0
BLOCK_RECORD
  5
1F
330
1
100
AcDbSymbolTableRecord
100
AcDbBlockTableRecord
  2
*Model_Space
340
22
  0
BLOCK_RECORD
  5
1B
330
1
100
AcDbSymbolTableRecord
100
AcDbBlockTableRecord
  2
*Paper_Space
340
1E
  0
BLOCK_RECORD
  5
23
330
1
100
AcDbSymbolTableRecord
100
AcDbBlockTableRecord
  2
*Paper_Space0
340
26
  0
BLOCK_RECORD
  5
88
330
1
100
AcDbSymbolTableRecord
100
AcDbBlockTableRecord
  2
SW_CENTERMARKSYMBOL_0
340
0
102
{BLKREFS
331
93
102
}
  0
BLOCK_RECORD
  5
9C
330
1
100
AcDbSymbolTableRecord
100
AcDbBlockTableRecord
  2
SW_CENTERMARKSYMBOL_1
340
0
102
{BLKREFS
331
A7
102
}
  0
ENDTAB
  0
ENDSEC
  0
SECTION
  2
BLOCKS
  0
BLOCK
  5
20
330
1F
100
AcDbEntity
  8
0
100
AcDbBlockBegin
  2
*Model_Space
 70
     0
 10
0.0
 20
0.0
 30
0.0
  3
*Model_Space
  1

  0
ENDBLK
  5
21
330
1F
100
AcDbEntity
  8
0
100
AcDbBlockEnd
  0
BLOCK
  5
1C
330
1B
100
AcDbEntity
 67
     1
  8
0
100
AcDbBlockBegin
  2
*Paper_Space
 70
     0
 10
0.0
 20
0.0
 30
0.0
  3
*Paper_Space
  1

  0
ENDBLK
  5
1D
330
1B
100
AcDbEntity
 67
     1
  8
0
100
AcDbBlockEnd
  0
BLOCK
  5
24
330
23
100
AcDbEntity
  8
0
100
AcDbBlockBegin
  2
*Paper_Space0
 70
     0
 10
0.0
 20
0.0
 30
0.0
  3
*Paper_Space0
  1

  0
ENDBLK
  5
25
330
23
100
AcDbEntity
  8
0
100
AcDbBlockEnd
  0
BLOCK
  5
89
330
88
100
AcDbEntity
  8
0
100
AcDbBlockBegin
  2
SW_CENTERMARKSYMBOL_0
 70
     0
 10
0.0
 20
0.0
 30
0.0
  3
SW_CENTERMARKSYMBOL_0
  1

  0
LINE
  5
8B
330
88
100
AcDbEntity
  8
FORMAT
 62
     0
100
AcDbLine
 10
0.0
 20
0.0
 30
0.0
 11
2.5
 21
0.0
 31
0.0
  0
LINE
  5
8C
330
88
100
AcDbEntity
  8
FORMAT
 62
     0
100
AcDbLine
 10
0.0
 20
0.0
 30
0.0
 11
0.0
 21
2.5
 31
0.0
  0
LINE
  5
8D
330
88
100
AcDbEntity
  8
FORMAT
 62
     0
100
AcDbLine
 10
0.0
 20
0.0
 30
0.0
 11
-2.5
 21
0.0
 31
0.0
  0
LINE
  5
8E
330
88
100
AcDbEntity
  8
FORMAT
 62
     0
100
AcDbLine
 10
0.0
 20
0.0
 30
0.0
 11
0.0
 21
-2.5
 31
0.0
  0
LINE
  5
8F
330
88
100
AcDbEntity
  8
FORMAT
 62
     0
100
AcDbLine
 10
5.0
 20
0.0
 30
0.0
 11
180.0
 21
0.0
 31
0.0
  0
LINE
  5
90
330
88
100
AcDbEntity
  8
FORMAT
 62
     0
100
AcDbLine
 10
0.0
 20
5.0
 30
0.0
 11
0.0
 21
180.0
 31
0.0
  0
LINE
  5
91
330
88
100
AcDbEntity
  8
FORMAT
 62
     0
100
AcDbLine
 10
-5.0
 20
0.0
 30
0.0
 11
-180.0
 21
0.0
 31
0.0
  0
LINE
  5
92
330
88
100
AcDbEntity
  8
FORMAT
 62
     0
100
AcDbLine
 10
0.0
 20
-5.0
 30
0.0
 11
0.0
 21
-180.0
 31
0.0
  0
ENDBLK
  5
8A
330
88
100
AcDbEntity
  8
0
100
AcDbBlockEnd
  0
BLOCK
  5
9D
330
9C
100
AcDbEntity
  8
0
100
AcDbBlockBegin
  2
SW_CENTERMARKSYMBOL_1
 70
     0
 10
0.0
 20
0.0
 30
0.0
  3
SW_CENTERMARKSYMBOL_1
  1

  0
LINE
  5
9F
330
9C
100
AcDbEntity
  8
FORMAT
 62
     0
100
AcDbLine
 10
0.0
 20
0.0
 30
0.0
 11
0.0
 21
2.5
 31
0.0
  0
LINE
  5
A0
330
9C
100
AcDbEntity
  8
FORMAT
 62
     0
100
AcDbLine
 10
0.0
 20
0.0
 30
0.0
 11
-2.5
 21
0.0
 31
0.0
  0
LINE
  5
A1
330
9C
100
AcDbEntity
  8
FORMAT
 62
     0
100
AcDbLine
 10
0.0
 20
0.0
 30
0.0
 11
0.0
 21
-2.5
 31
0.0
  0
LINE
  5
A2
330
9C
100
AcDbEntity
  8
FORMAT
 62
     0
100
AcDbLine
 10
0.0
 20
0.0
 30
0.0
 11
2.5
 21
0.0
 31
0.0
  0
LINE
  5
A3
330
9C
100
AcDbEntity
  8
FORMAT
 62
     0
100
AcDbLine
 10
0.0
 20
5.0
 30
0.0
 11
0.0
 21
82.5
 31
0.0
  0
LINE
  5
A4
330
9C
100
AcDbEntity
  8
FORMAT
 62
     0
100
AcDbLine
 10
-5.0
 20
0.0
 30
0.0
 11
-82.5
 21
0.0
 31
0.0
  0
LINE
  5
A5
330
9C
100
AcDbEntity
  8
FORMAT
 62
     0
100
AcDbLine
 10
0.0
 20
-5.0
 30
0.0
 11
0.0
 21
-82.5
 31
0.0
  0
LINE
  5
A6
330
9C
100
AcDbEntity
  8
FORMAT
 62
     0
100
AcDbLine
 10
5.0
 20
0.0
 30
0.0
 11
82.5
 21
0.0
 31
0.0
  0
ENDBLK
  5
9E
330
9C
100
AcDbEntity
  8
0
100
AcDbBlockEnd
  0
ENDSEC
  0
SECTION
  2
ENTITIES
  0
LINE
  5
83
330
1F
100
AcDbEntity
  8
0
  6
Continuous
 62
     7
370
    25
100
AcDbLine
 10
60.8001171859
 20
319.6811324739
 30
0.0
 11
60.8001171859
 21
162.1932636363
 31
0.0
  0
LINE
  5
84
330
1F
100
AcDbEntity
  8
0
  6
Continuous
 62
     7
370
    25
100
AcDbLine
 10
220.8001171859
 20
162.1932636363
 30
0.0
 11
220.8001171859
 21
319.6852826778
 31
0.0
  0
CIRCLE
  5
85
330
1F
100
AcDbEntity
  8
0
  6
Continuous
 62
     7
370
    25
100
AcDbCircle
 10
140.8001171859
 20
478.1932636363
 30
0.0
 40
156.4
  0
CIRCLE
  5
86
330
1F
100
AcDbEntity
  8
0
  6
Continuous
 62
     7
370
    25
100
AcDbCircle
 10
140.8001171859
 20
478.1932636363
 30
0.0
 40
177.5
  0
LINE
  5
87
330
1F
100
AcDbEntity
  8
0
  6
Continuous
 62
     7
370
    25
100
AcDbLine
 10
220.8001171859
 20
162.1932636363
 30
0.0
 11
60.8001171859
 21
162.1932636363
 31
0.0
  0
INSERT
  5
93
330
1F
100
AcDbEntity
  8
FORMAT
 62
     7
100
AcDbBlockReference
  2
SW_CENTERMARKSYMBOL_0
 10
140.8001171859
 20
478.1932636363
 30
0.0
  0
LINE
  5
94
330
1F
100
AcDbEntity
  8
0
  6
Continuous
 62
     7
370
    25
100
AcDbLine
 10
318.3001171859
 20
1202.1241419015
 30
0.0
 11
318.3001171859
 21
1777.1241419015
 31
0.0
  0
LINE
  5
95
330
1F
100
AcDbEntity
  8
0
  6
Continuous
 62
     7
370
    25
100
AcDbLine
 10
-36.6998828141
 20
1777.1241419015
 30
0.0
 11
-36.6998828141
 21
1202.1241419015
 31
0.0
  0
CIRCLE
  5
96
330
1F
100
AcDbEntity
  8
0
  6
Continuous
 62
     7
370
    25
100
AcDbCircle
 10
140.8001171859
 20
1489.6241419015
 30
0.0
 40
70.5
  0
CIRCLE
  5
97
330
1F
100
AcDbEntity
  8
0
  6
Continuous
 62
     7
370
    25
100
AcDbCircle
 10
140.8001171859
 20
1489.6241419015
 30
0.0
 40
79.99999999999977
  0
LINE
  5
98
330
1F
100
AcDbEntity
  8
0
  6
Continuous
 62
     7
370
    25
100
AcDbLine
 10
140.8001171859
 20
1777.1241419015
 30
0.0
 11
318.3001171859
 21
1777.1241419015
 31
0.0
  0
LINE
  5
99
330
1F
100
AcDbEntity
  8
0
  6
Continuous
 62
     7
370
    25
100
AcDbLine
 10
-36.6998828141
 20
1777.1241419015
 30
0.0
 11
140.8001171859
 21
1777.1241419015
 31
0.0
  0
LINE
  5
9A
330
1F
100
AcDbEntity
  8
0
  6
Continuous
 62
     7
370
    25
100
AcDbLine
 10
140.8001171859
 20
1202.1241419015
 30
0.0
 11
318.3001171859
 21
1202.1241419015
 31
0.0
  0
LINE
  5
9B
330
1F
100
AcDbEntity
  8
0
  6
Continuous
 62
     7
370
    25
100
AcDbLine
 10
-36.6998828141
 20
1202.1241419015
 30
0.0
 11
140.8001171859
 21
1202.1241419015
 31
0.0
  0
INSERT
  5
A7
330
1F
100
AcDbEntity
  8
FORMAT
100
AcDbBlockReference
  2
SW_CENTERMARKSYMBOL_1
 10
140.8001171859
 20
1489.6241419015
 30
0.0
  0
LINE
  5
A8
330
1F
100
AcDbEntity
  8
0
  6
Continuous
 62
     7
370
    25
100
AcDbLine
 10
-580.5530641733
 20
655.6932636363
 30
0.0
 11
-1155.5530641733
 21
655.6932636363
 31
0.0
  0
LINE
  5
A9
330
1F
100
AcDbEntity
  8
0
  6
Continuous
 62
     7
370
    25
100
AcDbLine
 10
-788.1231044416
 20
300.6932636363
 30
0.0
 11
-580.5530641733
 21
300.6932636363
 31
0.0
  0
LINE
  5
AA
330
1F
100
AcDbEntity
  8
0
  6
Continuous
 62
     7
370
    25
100
AcDbLine
 10
-1155.5530641733
 20
300.6932636363
 30
0.0
 11
-948.0530641733
 21
300.6932636363
 31
0.0
  0
LINE
  5
AB
330
1F
100
AcDbEntity
  8
0
  6
Continuous
 62
     7
370
    25
100
AcDbLine
 10
-948.0530641733
 20
300.6932636363
 30
0.0
 11
-948.0530641733
 21
162.1932636363
 31
0.0
  0
LINE
  5
AC
330
1F
100
AcDbEntity
  8
0
  6
Continuous
 62
     7
370
    25
100
AcDbLine
 10
-788.0530641733
 20
162.1932636363
 30
0.0
 11
-788.0530641733
 21
300.7249091944
 31
0.0
  0
SPLINE
  5
AD
330
1F
100
AcDbEntity
  8
0
  6
Continuous
 62
     7
370
    25
100
AcDbSpline
210
0.0
220
0.0
230
1.0
 70
     8
 71
     3
 72
    46
 73
    42
 74
     0
 42
0.00000001
 43
0.00000001
 40
0.0
 40
0.0
 40
0.0
 40
0.0
 40
0.0126947421464478
 40
0.0389155154459526
 40
0.0628312948783041
 40
0.0867478222903615
 40
0.1113192277491197
 40
0.1358917547596696
 40
0.1605879750019276
 40
0.1852852364543094
 40
0.2105947164204188
 40
0.2359048691861703
 40
0.2626206509191777
 40
0.2893363613269085
 40
0.3167879365262442
 40
0.344238266159323
 40
0.3715472944113263
 40
0.3988542289471004
 40
0.4271098256035696
 40
0.4553631062397993
 40
0.480312778676874
 40
0.5052619669047912
 40
0.5310408041511905
 40
0.5568204865535905
 40
0.5802651885637734
 40
0.6037110428386242
 40
0.6277591526718512
 40
0.6518085292606938
 40
0.6767972744499283
 40
0.7017869658340993
 40
0.7273855289773763
 40
0.752984314815574
 40
0.7801952311149437
 40
0.8074054047511302
 40
0.8354209979170618
 40
0.8634349109342798
 40
0.890283312895782
 40
0.9171301239677827
 40
0.9449043438123143
 40
0.9726773396071268
 40
1.0
 40
1.0
 40
1.0
 40
1.0
 10
-788.1231044416376
 20
300.7249092306677
 30
0.0
 10
-788.1090808523535
 20
300.718633517719
 30
0.0
 10
-788.0660917786806
 20
300.6993954267539
 30
0.0
 10
-788.5749992738182
 20
300.9282347812544
 30
0.0
 10
-789.5678863660268
 20
301.3720910950445
 30
0.0
 10
-791.0151689857174
 20
302.0104800155499
 30
0.0
 10
-792.919912678435
 20
302.8366590410195
 30
0.0
 10
-795.2870958193973
 20
303.8392223252424
 30
0.0
 10
-798.0840989794174
 20
304.9900435273037
 30
0.0
 10
-801.3159222161311
 20
306.2724503536362
 30
0.0
 10
-804.9707976740057
 20
307.6608910993475
 30
0.0
 10
-809.1096015281005
 20
309.1517813686485
 30
0.0
 10
-813.7068071402047
 20
310.7037809275936
 30
0.0
 10
-818.8041355179013
 20
312.2922345400303
 30
0.0
 10
-824.3074549349317
 20
313.8464236204551
 30
0.0
 10
-830.1852503622392
 20
315.3169926377176
 30
0.0
 10
-836.3558710401817
 20
316.6430284397827
 30
0.0
 10
-842.8516441569876
 20
317.7974384554798
 30
0.0
 10
-849.6516331520929
 20
318.7276679265786
 30
0.0
 10
-856.4306841027666
 20
319.3656780574314
 30
0.0
 10
-863.0329208557102
 20
319.7055375502364
 30
0.0
 10
-869.4661724822251
 20
319.7820784283973
 30
0.0
 10
-875.9589393717333
 20
319.5903078853431
 30
0.0
 10
-882.2601303430596
 20
319.1478824644408
 30
0.0
 10
-888.2578728577889
 20
318.4939827914392
 30
0.0
 10
-893.9790911397151
 20
317.6694433440073
 30
0.0
 10
-899.5784918486771
 20
316.6681528488577
 30
0.0
 10
-905.0937242480733
 20
315.5007388251511
 30
0.0
 10
-910.4397650013444
 20
314.1984945050957
 30
0.0
 10
-915.6237042311525
 20
312.7805414752561
 30
0.0
 10
-920.5444113336256
 20
311.2959544171299
 30
0.0
 10
-925.2689980708079
 20
309.7483602883822
 30
0.0
 10
-929.7065938875274
 20
308.1873550443015
 30
0.0
 10
-933.8453908548184
 20
306.6400188006865
 30
0.0
 10
-937.5482603096488
 20
305.1834682196948
 30
0.0
 10
-940.7280482971221
 20
303.8784318711689
 30
0.0
 10
-943.3377617481776
 20
302.7723376322927
 30
0.0
 10
-945.4113091488795
 20
301.8704181757528
 30
0.0
 10
-946.9190760476205
 20
301.202959821464
 30
0.0
 10
-947.877059883001
 20
300.7726233173794
 30
0.0
 10
-947.9947166402225
 20
300.7195723223702
 30
0.0
 10
-948.0530641732755
 20
300.6932636363424
 30
0.0
  0
LINE
  5
AE
330
1F
100
AcDbEntity
  8
0
  6
Continuous
 62
     7
370
    25
100
AcDbLine
 10
-1155.5530641733
 20
300.6932636363
 30
0.0
 11
-1155.5530641733
 21
655.6932636363
 31
0.0
  0
LINE
  5
AF
330
1F
100
AcDbEntity
  8
0
  6
Continuous
 62
     7
370
    25
100
AcDbLine
 10
-580.5530641733
 20
300.6932636363
 30
0.0
 11
-580.5530641733
 21
655.6932636363
 31
0.0
  0
LINE
  5
B0
330
1F
100
AcDbEntity
  8
0
  6
Continuous
 62
     7
370
    25
100
AcDbLine
 10
-788.0530641733
 20
162.1932636363
 30
0.0
 11
-948.0530641733
 21
162.1932636363
 31
0.0
  0
LINE
  5
B1
330
1F
100
AcDbEntity
  8
0
  6
Continuous
 62
     7
370
    25
100
AcDbLine
 10
1218.8979187942
 20
300.6932636363
 30
0.0
 11
1426.3979187942
 21
300.6932636363
 31
0.0
  0
LINE
  5
B2
330
1F
100
AcDbEntity
  8
0
  6
Continuous
 62
     7
370
    25
100
AcDbLine
 10
851.3979187942
 20
300.6932636363
 30
0.0
 11
1058.9670061514
 21
300.6932636363
 31
0.0
  0
LINE
  5
B3
330
1F
100
AcDbEntity
  8
0
  6
Continuous
 62
     7
370
    25
100
AcDbLine
 10
1426.3979187942
 20
655.6932636363
 30
0.0
 11
851.3979187942
 21
655.6932636363
 31
0.0
  0
LINE
  5
B4
330
1F
100
AcDbEntity
  8
0
  6
Continuous
 62
     7
370
    25
100
AcDbLine
 10
1058.8979187942
 20
300.7243907727
 30
0.0
 11
1058.8979187942
 21
162.1932636363
 31
0.0
  0
LINE
  5
B5
330
1F
100
AcDbEntity
  8
0
  6
Continuous
 62
     7
370
    25
100
AcDbLine
 10
1218.8979187942
 20
162.1932636363
 30
0.0
 11
1218.8979187942
 21
300.6932636363
 31
0.0
  0
SPLINE
  5
B6
330
1F
100
AcDbEntity
  8
0
  6
Continuous
 62
     7
370
    25
100
AcDbSpline
210
0.0
220
0.0
230
1.0
 70
     8
 71
     3
 72
    46
 73
    42
 74
     0
 42
0.00000001
 43
0.00000001
 40
0.0
 40
0.0
 40
0.0
 40
0.0
 40
0.0246171653491191
 40
0.0494177082723521
 40
0.0747885707560352
 40
0.1003516107092794
 40
0.1249664996733766
 40
0.1497434167600924
 40
0.1750099977376347
 40
0.2004373411816716
 40
0.2263455783743608
 40
0.252416244899751
 40
0.2789905368871304
 40
0.3057379580719232
 40
0.3330999079468718
 40
0.3606620116597419
 40
0.3888869522479672
 40
0.4173579728198311
 40
0.4431898980530592
 40
0.4692322565343192
 40
0.4959628801889547
 40
0.522939657630036
 40
0.5464686597286345
 40
0.5701606924397538
 40
0.594348905742534
 40
0.6187002031899407
 40
0.6428244861240566
 40
0.6670942811736991
 40
0.6918009479207722
 40
0.7166510927138746
 40
0.743164593443384
 40
0.7698495079899607
 40
0.7970771033690494
 40
0.824496211553106
 40
0.8517353062688862
 40
0.8791824502311123
 40
0.9073178592205944
 40
0.9357059857585421
 40
0.9609921172713556
 40
0.9864742495480399
 40
1.0
 40
1.0
 40
1.0
 40
1.0
 10
1218.897918794222
 20
300.6932636363424
 30
0.0
 10
1218.850500363416
 20
300.7146614805644
 30
0.0
 10
1218.755310273611
 20
300.7576165652958
 30
0.0
 10
1217.979903895507
 20
301.105868925168
 30
0.0
 10
1216.727732316447
 20
301.6624578409689
 30
0.0
 10
1214.97284804104
 20
302.4304152329206
 30
0.0
 10
1212.767472184916
 20
303.375087128663
 30
0.0
 10
1210.131573558355
 20
304.4744647561888
 30
0.0
 10
1207.039394370337
 20
305.7217827543768
 30
0.0
 10
1203.484149408318
 20
307.0980575807861
 30
0.0
 10
1199.488931725915
 20
308.5691122774094
 30
0.0
 10
1195.04527102205
 20
310.1088427161216
 30
0.0
 10
1190.180312979674
 20
311.6749405961503
 30
0.0
 10
1184.877439618766
 20
313.2355125628185
 30
0.0
 10
1179.168636356765
 20
314.7398785411424
 30
0.0
 10
1173.035961495909
 20
316.1471668802112
 30
0.0
 10
1166.528617262711
 20
317.3978215113771
 30
0.0
 10
1159.907509443347
 20
318.4022068556457
 30
0.0
 10
1153.281208798993
 20
319.1359678721087
 30
0.0
 10
1146.67714506454
 20
319.5998786332131
 30
0.0
 10
1139.907243658008
 20
319.7899744938583
 30
0.0
 10
1133.34126673457
 20
319.6897184425666
 30
0.0
 10
1127.081036884763
 20
319.3405503035519
 30
0.0
 10
1121.138707004456
 20
318.7878319491023
 30
0.0
 10
1115.252231704262
 20
318.024041003967
 30
0.0
 10
1109.493891433637
 20
317.0706544404126
 30
0.0
 10
1103.924715068052
 20
315.9590673518128
 30
0.0
 10
1098.552277003492
 20
314.7145116240326
 30
0.0
 10
1093.380326830911
 20
313.3594388411008
 30
0.0
 10
1088.339731381913
 20
311.8954733174671
 30
0.0
 10
1083.498081409782
 20
310.3580719683007
 30
0.0
 10
1078.887342230019
 20
308.777239699791
 30
0.0
 10
1074.638813299717
 20
307.2231708121471
 30
0.0
 10
1070.812078770229
 20
305.7452684173096
 30
0.0
 10
1067.456297567124
 20
304.3902163116647
 30
0.0
 10
1064.585196154202
 20
303.1882039517679
 30
0.0
 10
1062.23592539968
 20
302.1757789934264
 30
0.0
 10
1060.520117920191
 20
301.4198211484781
 30
0.0
 10
1059.442844025024
 20
300.9386830142577
 30
0.0
 10
1058.91858731707
 20
300.7025859393759
 30
0.0
 10
1058.954539831625
 20
300.7187767585525
 30
0.0
 10
1058.967006151405
 20
300.7243908284399
 30
0.0
  0
LINE
  5
B7
330
1F
100
AcDbEntity
  8
0
  6
Continuous
 62
     7
370
    25
100
AcDbLine
 10
1426.3979187942
 20
655.6932636363
 30
0.0
 11
1426.3979187942
 21
300.6932636363
 31
0.0
  0
LINE
  5
B8
330
1F
100
AcDbEntity
  8
0
  6
Continuous
 62
     7
370
    25
100
AcDbLine
 10
851.3979187942
 20
655.6932636363
 30
0.0
 11
851.3979187942
 21
300.6932636363
 31
0.0
  0
LINE
  5
B9
330
1F
100
AcDbEntity
  8
0
  6
Continuous
 62
     7
370
    25
100
AcDbLine
 10
1218.8979187942
 20
162.1932636363
 30
0.0
 11
1058.8979187942
 21
162.1932636363
 31
0.0
  0
LINE
  5
BA
330
1F
100
AcDbEntity
  8
0
  6
Continuous
 62
     7
370
    25
100
AcDbLine
 10
-36.6998828141
 20
-825.6604609798
 30
0.0
 11
-36.6998828141
 21
-1400.6604609798
 31
0.0
  0
LINE
  5
BB
330
1F
100
AcDbEntity
  8
0
  6
Continuous
 62
     7
370
    25
100
AcDbLine
 10
318.3001171859
 20
-1400.6604609798
 30
0.0
 11
318.3001171859
 21
-825.6604609798
 31
0.0
  0
LINE
  5
BC
330
1F
100
AcDbEntity
  8
0
  6
Continuous
 62
     7
370
    25
100
AcDbLine
 10
318.3001171859
 20
-1400.6604609798
 30
0.0
 11
-36.6998828141
 21
-1400.6604609798
 31
0.0
  0
LINE
  5
BD
330
1F
100
AcDbEntity
  8
0
  6
Continuous
 62
     7
370
    25
100
AcDbLine
 10
318.3001171859
 20
-825.6604609798
 30
0.0
 11
-36.6998828141
 21
-825.6604609798
 31
0.0
  0
LINE
  5
BE
330
1F
100
AcDbEntity
  8
0
  6
Continuous
 62
     7
370
    25
100
AcDbLine
 10
1427.1311349016
 20
-823.0639251974
 30
0.0
 11
1020.5447357193
 21
-588.3465930484
 31
0.0
  0
LINE
  5
BF
330
1F
100
AcDbEntity
  8
0
  6
Continuous
 62
     7
370
    25
100
AcDbLine
 10
843.0591606764
 20
-895.7939391935
 30
0.0
 11
1055.095147789
 21
-1018.1997090735
 31
0.0
  0
LINE
  5
C0
330
1F
100
AcDbEntity
  8
0
  6
Continuous
 62
     7
370
    25
100
AcDbLine
 10
1215.095147789
 20
-1110.5657430072
 30
0.0
 11
1249.6455598587
 21
-1130.5112713425
 31
0.0
  0
LINE
  5
C1
330
1F
100
AcDbEntity
  8
0
  6
Continuous
 62
     7
370
    25
100
AcDbLine
 10
1055.095147789
 20
-996.806452579
 30
0.0
 11
1055.095147789
 21
-1117.4558287513
 31
0.0
  0
LINE
  5
C2
330
1F
100
AcDbEntity
  8
0
  6
Continuous
 62
     7
370
    25
100
AcDbLine
 10
1215.095147789
 20
-1117.4558287513
 30
0.0
 11
1215.095147789
 21
-996.8059614439
 31
0.0
  0
SPLINE
  5
C3
330
1F
100
AcDbEntity
  8
0
  6
Continuous
 62
     7
370
    25
100
AcDbSpline
210
0.0
220
0.0
230
1.0
 70
     8
 71
     3
 72
    17
 73
    13
 74
     0
 42
0.00000001
 43
0.00000001
 40
0.0
 40
0.0
 40
0.0
 40
0.0
 40
0.0985311413577797
 40
0.1989356881376245
 40
0.2993432382787909
 40
0.4016602787441266
 40
0.500182308784206
 40
0.6003302510361979
 40
0.7004828082356744
 40
0.802256718257645
 40
0.9059554238137294
 40
1.0
 40
1.0
 40
1.0
 40
1.0
 10
1078.526605294071
 20
-971.7086018322485
 30
0.0
 10
1077.081353021304
 20
-972.5641650011787
 30
0.0
 10
1074.163369412739
 20
-974.2915584466509
 30
0.0
 10
1070.255728513793
 20
-976.8977714051618
 30
0.0
 10
1066.6946473789
 20
-979.5223834249526
 30
0.0
 10
1063.611249257147
 20
-982.1051087818372
 30
0.0
 10
1060.987379053322
 20
-984.6521333408846
 30
0.0
 10
1058.846801088645
 20
-987.1438809052926
 30
0.0
 10
1057.15606044093
 20
-989.6254513472483
 30
0.0
 10
1055.950760058541
 20
-992.0998694408328
 30
0.0
 10
1055.214919990431
 20
-994.4964195430376
 30
0.0
 10
1055.151228907272
 20
-996.0622411457641
 30
0.0
 10
1055.120938113726
 20
-996.8069290447116
 30
0.0
  0
SPLINE
  5
C4
330
1F
100
AcDbEntity
  8
0
  6
Continuous
 62
     7
370
    25
100
AcDbSpline
210
0.0
220
0.0
230
1.0
 70
     8
 71
     3
 72
    36
 73
    32
 74
     0
 42
0.00000001
 43
0.00000001
 40
0.0
 40
0.0
 40
0.0
 40
0.0
 40
0.0169170638418606
 40
0.0530138329189079
 40
0.0891097632787961
 40
0.1258334695100521
 40
0.1620953614492699
 40
0.1986396339467824
 40
0.2361285060359638
 40
0.2739693912133405
 40
0.3070978561523719
 40
0.3409031565575662
 40
0.3747086553055509
 40
0.4092176971786478
 40
0.4403707701705254
 40
0.4720271297488231
 40
0.5036851903078281
 40
0.535841833578676
 40
0.5690535321510802
 40
0.6027702935278193
 40
0.6364878692350067
 40
0.670714501202875
 40
0.706863599177625
 40
0.7432607882868502
 40
0.780460941379034
 40
0.8179512740142619
 40
0.8536002792582181
 40
0.8899937695555
 40
0.9263852389242407
 40
0.963577482263641
 40
1.0
 40
1.0
 40
1.0
 40
1.0
 10
1215.027189561059
 20
-996.8058855908176
 30
0.0
 10
1215.041285739711
 20
-995.9971080329976
 30
0.0
 10
1215.085459626318
 20
-993.4626021211188
 30
0.0
 10
1214.562056864909
 20
-989.207643203635
 30
0.0
 10
1213.473501608462
 20
-984.0826506525075
 30
0.0
 10
1211.783149364278
 20
-979.0828272101072
 30
0.0
 10
1209.526512979138
 20
-974.2590791858757
 30
0.0
 10
1206.688529185108
 20
-969.6615066643802
 30
0.0
 10
1203.242549806619
 20
-965.3309621888077
 30
0.0
 10
1199.361720631901
 20
-961.5238086145051
 30
0.0
 10
1195.150805704689
 20
-958.2531867927099
 30
0.0
 10
1190.709846236638
 20
-955.5126318884996
 30
0.0
 10
1185.846358740552
 20
-953.168122329721
 30
0.0
 10
1180.789891778849
 20
-951.3299555587438
 30
0.0
 10
1175.585646888315
 20
-949.9498393393972
 30
0.0
 10
1170.327972294469
 20
-948.9940326130409
 30
0.0
 10
1164.840410942744
 20
-948.4036200781187
 30
0.0
 10
1159.117459714254
 20
-948.1731112329593
 30
0.0
 10
1153.153718202256
 20
-948.3000654835762
 30
0.0
 10
1147.004572293154
 20
-948.780382195293
 30
0.0
 10
1140.732548212642
 20
-949.5934274096354
 30
0.0
 10
1134.278970932248
 20
-950.7361646111497
 30
0.0
 10
1127.659351952708
 20
-952.206169011492
 30
0.0
 10
1120.894457807973
 20
-953.9986530133219
 30
0.0
 10
1114.128941123061
 20
-956.0675245621948
 30
0.0
 10
1107.538048711253
 20
-958.3437982402744
 30
0.0
 10
1101.170923075959
 20
-960.7841181102305
 30
0.0
 10
1095.084926590464
 20
-963.3445486435711
 30
0.0
 10
1089.19660590531
 20
-966.057173354137
 30
0.0
 10
1083.610347757958
 20
-968.8529551307777
 30
0.0
 10
1080.209332294019
 20
-970.7633781430051
 30
0.0
 10
1078.526605294071
 20
-971.7086018322485
 30
0.0
  0
LWPOLYLINE
  5
C5
330
1F
100
AcDbEntity
  8
0
  6
Continuous
 62
     7
370
    25
100
AcDbPolyline
 90
      142
 70
   128
 43
0.0
 10
931.8019481979
 20
-887.0062602306
 10
937.3930882805
 20
-883.6346852642
 10
942.9731276721
 20
-879.9820472473
 10
948.5309877208
 20
-876.0555981548
 10
954.0556338101
 20
-871.8631335878
 10
959.5360972665
 20
-867.4129772966
 10
964.9614971372
 20
-862.7139646546
 10
970.3210617928
 20
-857.7754251166
 10
975.6041503139
 20
-852.6071636955
 10
980.8002736171
 20
-847.2194414961
 10
985.8991152808
 20
-841.622955342
 10
990.8905520267
 20
-835.8288165385
 10
995.7646738192
 20
-829.8485288119
 10
1000.5118035407
 20
-823.6939654698
 10
1005.1225162044
 20
-817.3773458281
 10
1009.5876576673
 20
-810.9112109504
 10
1013.8983628042
 20
-804.308398749
 10
1018.046073109
 20
-797.5820184963
 10
1022.0225536871
 20
-790.7454247977
 10
1025.8199096041
 20
-783.8121910771
 10
1029.4306015615
 20
-776.7960826283
 10
1032.8474608645
 20
-769.7110292852
 10
1036.0637036554
 20
-762.5710977654
 10
1039.0729443818
 20
-755.390463742
 10
1041.8692084747
 20
-748.1833836992
 10
1044.4469442106
 20
-740.9641666273
 10
1046.8010337338
 20
-733.7471456136
 10
1048.9268032176
 20
-726.5466493852
 10
1050.8200321433
 20
-719.3769738609
 10
1052.4769616802
 20
-712.2523537678
 10
1053.894302148
 20
-705.1869343796
 10
1055.0692395484
 20
-698.1947434325
 10
1055.999441152
 20
-691.2896632744
 10
1056.6830601297
 20
-684.4854033027
 10
1057.1187392191
 20
-677.7954727459
 10
1057.3056134199
 20
-671.2331538418
 10
1057.2433117105
 20
-664.8114754671
 10
1056.9319577852
 20
-658.5431872698
 10
1056.3721698086
 20
-652.4407343559
 10
1055.5650591876
 20
-646.5162325809
 10
1054.5122283659
 20
-640.7814444946
 10
1053.2157676415
 20
-635.2477559878
 10
1051.6782510172
 20
-629.926153687
 10
1049.9027310899
 20
-624.8272031408
 10
1047.8927329901
 20
-619.9610278437
 10
1045.652247383
 20
-615.3372891362
 10
1043.1857225453
 20
-610.9651670235
 10
1040.4980555339
 20
-606.8533419495
 10
1037.5945824627
 20
-603.0099775621
 10
1034.4810679088
 20
-599.4427045055
 10
1031.1636934671
 20
-596.1586052704
 10
1027.6490454776
 20
-593.1642001316
 10
1023.9441019485
 20
-590.4654342035
 10
1020.0562187022
 20
-588.0676656359
 10
1015.993114771
 20
-585.9756549765
 10
1011.7628570716
 20
-584.1935557186
 10
1007.3738443893
 20
-582.7249060555
 10
1002.8347907023
 20
-581.5726218551
 10
998.1547078816
 20
-580.738990871
 10
993.3428877985
 20
-580.2256682004
 10
988.4088838763
 20
-580.0336729979
 10
983.3624921231
 20
-580.1633864523
 10
978.2137316826
 20
-580.6145510294
 10
972.9728249421
 20
-581.3862709838
 10
967.6501772368
 20
-582.4770141369
 10
962.256356191
 20
-583.8846149191
 10
956.8020707371
 20
-585.6062786695
 10
951.298149854
 20
-587.6385871839
 10
945.7555210672
 20
-589.977505502
 10
940.185188753
 20
-592.618389918
 10
934.5982122908
 20
-595.5559972002
 10
929.005684105
 20
-598.7844950013
 10
923.4187076427
 20
-602.2974734379
 10
917.8483753285
 20
-606.0879578163
 10
912.3057465417
 20
-610.1484224808
 10
906.8018256587
 20
-614.4708057545
 10
901.3475402048
 20
-619.0465259456
 10
895.9537191589
 20
-623.8664983853
 10
890.6310714536
 20
-628.9211534643
 10
885.3901647131
 20
-634.2004556329
 10
880.2414042726
 20
-639.6939233253
 10
875.1950125194
 20
-645.3906497699
 10
870.2610085972
 20
-651.2793246437
 10
865.4491885141
 20
-657.3482565278
 10
860.7691056934
 20
-663.5853961197
 10
856.2300520064
 20
-669.9783601561
 10
851.8410393241
 20
-676.5144559987
 10
847.6107816247
 20
-683.1807068341
 10
843.5476776935
 20
-689.9638774384
 10
839.6597944472
 20
-696.8505004542
 10
835.9548509181
 20
-703.826903129
 10
832.4402029286
 20
-710.8792344611
 10
829.1228284869
 20
-717.9934926993
 10
826.009313933
 20
-725.1555531425
 10
823.1058408619
 20
-732.3511961827
 10
820.4181738504
 20
-739.5661355365
 10
817.9516490127
 20
-746.7860466099
 10
815.7111634056
 20
-753.9965949376
 10
813.7011653058
 20
-761.1834646433
 10
811.9256453785
 20
-768.3323868627
 10
810.3881287542
 20
-775.4291680722
 10
809.0916680298
 20
-782.4597182697
 10
808.0388372081
 20
-789.4100789487
 10
807.2317265872
 20
-796.2664508112
 10
806.6719386105
 20
-803.0152211657
 10
806.3605846852
 20
-809.6429909533
 10
806.2982829759
 20
-816.1366013505
 10
806.4851571766
 20
-822.483159895
 10
806.920836266
 20
-828.6700660824
 10
807.6044552437
 20
-834.6850363829
 10
808.5346568473
 20
-840.51612863
 10
809.7095942478
 20
-846.1517657296
 10
811.1269347156
 20
-851.580758646
 10
812.7838642524
 20
-856.7923286162
 10
814.6770931781
 20
-861.7761285506
 10
816.8028626619
 20
-866.5222635756
 10
819.1569521851
 20
-871.0213106794
 10
821.7346879211
 20
-875.2643374206
 10
824.530952014
 20
-879.2429196622
 10
827.5401927403
 20
-882.9491582976
 10
830.7564355312
 20
-886.3756949329
 10
834.1732948343
 20
-889.5157264968
 10
837.7839867916
 20
-892.3630187474
 10
841.5813427087
 20
-894.9119186493
 10
845.5578232867
 20
-897.1573655979
 10
849.7055335916
 20
-899.094901466
 10
854.0162387285
 20
-900.7206794555
 10
858.4813801913
 20
-902.0314717347
 10
863.0920928551
 20
-903.0246758469
 10
867.8392225765
 20
-903.6983198773
 10
872.713344369
 20
-904.0510663679
 10
877.7047811149
 20
-904.0822149732
 10
882.8036227786
 20
-903.7917038507
 10
887.9997460819
 20
-903.1801097832
 10
893.2828346029
 20
-902.2486470341
 10
898.6423992585
 20
-900.9991649366
 10
904.0677991292
 20
-899.4341442216
 10
909.5482625856
 20
-897.5566920929
 10
915.0729086749
 20
-895.370536058
 10
920.6307687237
 20
-892.8800165273
 10
926.2108081152
 20
-890.0900781967
 10
931.8019481979
 20
-887.0062602306
  0
LWPOLYLINE
  5
C6
330
1F
100
AcDbEntity
  8
0
  6
Continuous
 62
     7
370
    25
100
AcDbPolyline
 90
       54
 70
   128
 43
0.0
 10
1338.3883473801
 20
-1121.7235923797
 10
1343.9794874628
 20
-1118.3520174132
 10
1349.5595268543
 20
-1114.6993793964
 10
1355.1173869031
 20
-1110.7729303038
 10
1360.6420329924
 20
-1106.5804657368
 10
1366.1224964488
 20
-1102.1303094456
 10
1371.5478963194
 20
-1097.4312968037
 10
1376.9074609751
 20
-1092.4927572656
 10
1382.1905494961
 20
-1087.3244958445
 10
1387.3866727994
 20
-1081.9367736451
 10
1392.4855144631
 20
-1076.340287491
 10
1397.476951209
 20
-1070.5461486875
 10
1402.3510730015
 20
-1064.5658609609
 10
1407.0982027229
 20
-1058.4112976188
 10
1411.7089153867
 20
-1052.0946779771
 10
1416.1740568495
 20
-1045.6285430995
 10
1420.4847619864
 20
-1039.0257308981
 10
1424.6324722913
 20
-1032.2993506453
 10
1428.6089528693
 20
-1025.4627569467
 10
1432.4063087864
 20
-1018.5295232261
 10
1436.0170007437
 20
-1011.5134147773
 10
1439.4338600468
 20
-1004.4283614342
 10
1442.6501028377
 20
-997.2884299144
 10
1445.659343564
 20
-990.107795891
 10
1448.4556076569
 20
-982.9007158482
 10
1451.0333433928
 20
-975.6814987763
 10
1453.3874329161
 20
-968.4644777626
 10
1455.5132023999
 20
-961.2639815342
 10
1457.4064313256
 20
-954.0943060099
 10
1459.0633608624
 20
-946.9696859168
 10
1460.4807013302
 20
-939.9042665286
 10
1461.6556387307
 20
-932.9120755815
 10
1462.5858403343
 20
-926.0069954234
 10
1463.2694593119
 20
-919.2027354518
 10
1463.7051384014
 20
-912.5128048949
 10
1463.8920126021
 20
-905.9504859908
 10
1463.8297108927
 20
-899.5288076161
 10
1463.5183569675
 20
-893.2605194188
 10
1462.9585689908
 20
-887.158066505
 10
1462.1514583699
 20
-881.2335647299
 10
1461.0986275482
 20
-875.4987766436
 10
1459.8021668238
 20
-869.9650881369
 10
1458.2646501994
 20
-864.643485836
 10
1456.4891302722
 20
-859.5445352899
 10
1454.4791321724
 20
-854.6783599927
 10
1452.2386465653
 20
-850.0546212852
 10
1449.7721217276
 20
-845.6824991726
 10
1447.0844547161
 20
-841.5706740985
 10
1444.1809816449
 20
-837.7273097111
 10
1441.0674670911
 20
-834.1600366546
 10
1437.7500926494
 20
-830.8759374194
 10
1434.2354446599
 20
-827.8815322807
 10
1430.5305011308
 20
-825.1827663525
 10
1427.1311349016
 20
-823.0639251974
  0
LWPOLYLINE
  5
C7
330
1F
100
AcDbEntity
  8
0
  6
Continuous
 62
     7
370
    25
100
AcDbPolyline
 90
       19
 70
   128
 43
0.0
 10
1249.6455598587
 20
-1130.5112713425
 10
1252.1442224689
 20
-1131.8746977469
 10
1256.2919327738
 20
-1133.812233615
 10
1260.6026379107
 20
-1135.4380116046
 10
1265.0677793736
 20
-1136.7488038838
 10
1269.6784920373
 20
-1137.742007996
 10
1274.4256217588
 20
-1138.4156520263
 10
1279.2997435513
 20
-1138.7683985169
 10
1284.2911802972
 20
-1138.7995471223
 10
1289.3900219608
 20
-1138.5090359997
 10
1294.5861452641
 20
-1137.8974419322
 10
1299.8692337852
 20
-1136.9659791832
 10
1305.2287984408
 20
-1135.7164970856
 10
1310.6541983115
 20
-1134.1514763706
 10
1316.1346617679
 20
-1132.2740242419
 10
1321.6593078572
 20
-1130.087868207
 10
1327.2171679059
 20
-1127.5973486763
 10
1332.7972072975
 20
-1124.8074103457
 10
1338.3883473801
 20
-1121.7235923797
  0
LWPOLYLINE
  5
C8
330
1F
100
AcDbEntity
  8
0
  6
Continuous
 62
     7
370
    25
100
AcDbPolyline
 90
      133
 70
   128
 43
0.0
 10
931.8019481979
 20
-869.7772490999
 10
937.0641036692
 20
-866.5948227115
 10
942.3143386658
 20
-863.1303081512
 10
947.540759717
 20
-859.3915536586
 10
952.7315272979
 20
-855.3870287152
 10
957.8748826504
 20
-851.1258048581
 10
962.9591744205
 20
-846.6175351297
 10
967.972885052
 20
-841.8724322111
 10
972.9046568777
 20
-836.9012452865
 10
977.7433178482
 20
-831.7152356932
 10
982.4779068401
 20
-826.326151411
 10
987.0976984866
 20
-820.7462004491
 10
991.5922274738
 20
-814.988023191
 10
995.9513122477
 20
-809.0646637604
 10
1000.1650780795
 20
-802.9895404714
 10
1004.2239794342
 20
-796.7764154323
 10
1008.1188215948
 20
-790.4393633697
 10
1011.840781491
 20
-783.9927397446
 10
1015.3814276866
 20
-777.4511482331
 10
1018.7327394791
 20
-770.8294076439
 10
1021.8871250695
 20
-764.1425183493
 10
1024.8374387598
 20
-757.4056283042
 10
1027.5769971407
 20
-750.6339987313
 10
1030.0995942312
 20
-743.8429695497
 10
1032.3995155375
 20
-737.0479246247
 10
1034.4715509982
 20
-730.2642569185
 10
1036.3110067866
 20
-723.5073336204
 10
1037.9137159435
 20
-716.7924613348
 10
1039.2760478174
 20
-710.1348514073
 10
1040.3949162883
 20
-703.5495854657
 10
1041.2677867593
 20
-697.0515812553
 10
1041.8926818981
 20
-690.6555588456
 10
1042.268186116
 20
-684.3760072846
 10
1042.3934487754
 20
-678.2271517764
 10
1042.268186116
 20
-672.2229214562
 10
1041.8926818981
 20
-666.376917837
 10
1041.2677867593
 20
-660.7023839972
 10
1040.3949162883
 20
-655.2121745811
 10
1039.2760478174
 20
-649.9187266789
 10
1037.9137159435
 20
-644.8340316525
 10
1036.3110067866
 20
-639.9696079717
 10
1034.4715509982
 20
-635.3364751207
 10
1032.3995155375
 20
-630.9451286354
 10
1030.0995942312
 20
-626.8055163282
 10
1027.5769971407
 20
-622.9270157524
 10
1024.8374387598
 20
-619.3184129591
 10
1021.8871250695
 20
-615.9878825944
 10
1018.7327394791
 20
-612.9429693808
 10
1015.3814276866
 20
-610.1905710261
 10
1011.840781491
 20
-607.7369225977
 10
1008.1188215948
 20
-605.5875823985
 10
1004.2239794342
 20
-603.7474193755
 10
1000.1650780795
 20
-602.2206020897
 10
995.9513122477
 20
-601.0105892733
 10
991.5922274738
 20
-600.1201219945
 10
987.0976984866
 20
-599.5512174482
 10
982.4779068401
 20
-599.3051643861
 10
977.7433178482
 20
-599.3825201976
 10
972.9046568777
 20
-599.7831096468
 10
967.972885052
 20
-600.5060252697
 10
962.9591744205
 20
-601.5496294301
 10
957.8748826504
 20
-602.9115580288
 10
952.7315272979
 20
-604.5887258595
 10
947.540759717
 20
-606.5773335976
 10
942.3143386658
 20
-608.8728764071
 10
937.0641036692
 20
-611.470154145
 10
931.8019481979
 20
-614.363283142
 10
926.5397927266
 20
-617.5457095303
 10
921.2895577299
 20
-621.0102240907
 10
916.0631366788
 20
-624.7489785833
 10
910.8723690979
 20
-628.7535035266
 10
905.7290137453
 20
-633.0147273838
 10
900.6447219752
 20
-637.5229971121
 10
895.6310113437
 20
-642.2681000308
 10
890.699239518
 20
-647.2392869553
 10
885.8605785475
 20
-652.4252965486
 10
881.1259895556
 20
-657.8143808308
 10
876.5061979091
 20
-663.3943317928
 10
872.011668922
 20
-669.1525090508
 10
867.652584148
 20
-675.0758684815
 10
863.4388183162
 20
-681.1509917705
 10
859.3799169615
 20
-687.3641168095
 10
855.485074801
 20
-693.7011688722
 10
851.7631149048
 20
-700.1477924972
 10
848.2224687092
 20
-706.6893840087
 10
844.8711569166
 20
-713.3111245979
 10
841.7167713262
 20
-719.9980138926
 10
838.7664576359
 20
-726.7349039377
 10
836.026899255
 20
-733.5065335105
 10
833.5043021646
 20
-740.2975626921
 10
831.2043808582
 20
-747.0926076172
 10
829.1323453975
 20
-753.8762753233
 10
827.2928896092
 20
-760.6331986215
 10
825.6901804522
 20
-767.348070907
 10
824.3278485783
 20
-774.0056808345
 10
823.2089801074
 20
-780.5909467762
 10
822.3361096364
 20
-787.0889509866
 10
821.7112144977
 20
-793.4849733962
 10
821.3357102797
 20
-799.7645249572
 10
821.2104476203
 20
-805.9133804655
 10
821.3357102797
 20
-811.9176107856
 10
821.7112144977
 20
-817.7636144048
 10
822.3361096364
 20
-823.4381482446
 10
823.2089801074
 20
-828.9283576607
 10
824.3278485783
 20
-834.221805563
 10
825.6901804522
 20
-839.3065005893
 10
827.2928896092
 20
-844.1709242701
 10
829.1323453975
 20
-848.8040571212
 10
831.2043808582
 20
-853.1954036064
 10
833.5043021646
 20
-857.3350159136
 10
836.026899255
 20
-861.2135164895
 10
838.7664576359
 20
-864.8221192827
 10
841.7167713262
 20
-868.1526496474
 10
844.8711569166
 20
-871.197562861
 10
848.2224687092
 20
-873.9499612158
 10
851.7631149048
 20
-876.4036096442
 10
855.485074801
 20
-878.5529498433
 10
859.3799169615
 20
-880.3931128663
 10
863.4388183162
 20
-881.9199301522
 10
867.652584148
 20
-883.1299429686
 10
872.011668922
 20
-884.0204102473
 10
876.5061979091
 20
-884.5893147936
 10
881.1259895556
 20
-884.8353678557
 10
885.8605785475
 20
-884.7580120443
 10
890.699239518
 20
-884.3574225951
 10
895.6310113437
 20
-883.6345069721
 10
900.6447219752
 20
-882.5909028117
 10
905.7290137453
 20
-881.228974213
 10
910.8723690979
 20
-879.5518063823
 10
916.0631366788
 20
-877.5631986442
 10
921.2895577299
 20
-875.2676558348
 10
926.5397927266
 20
-872.6703780968
 10
931.8019481979
 20
-869.7772490999
  0
LWPOLYLINE
  5
C9
330
1F
100
AcDbEntity
  8
0
  6
Continuous
 62
     7
370
    25
100
AcDbPolyline
 90
       90
 70
   128
 43
0.0
 10
1184.9461758626
 20
-1146.2342146931
 10
1188.338437833
 20
-1144.1325310703
 10
1191.4654444106
 20
-1141.8979454583
 10
1194.3116170059
 20
-1139.5415904505
 10
1196.8627761303
 20
-1137.0752052888
 10
1199.1062120373
 20
-1134.5110773801
 10
1201.030748042
 20
-1131.8619810806
 10
1202.626796203
 20
-1129.1411140548
 10
1203.8864050885
 20
-1126.3620315255
 10
1204.8032993904
 20
-1123.5385787419
 10
1205.3729111875
 20
-1120.6848220039
 10
1205.5924027024
 20
-1117.8149785839
 10
1205.4606804394
 20
-1114.9433458975
 10
1204.9784006323
 20
-1112.0842302743
 10
1204.1479659748
 20
-1109.2518756845
 10
1202.9735136505
 20
-1106.4603927762
 10
1201.4608947218
 20
-1103.7236885768
 10
1199.6176449803
 20
-1101.0553972091
 10
1197.4529474033
 20
-1098.4688119663
 10
1194.9775864054
 20
-1095.9768190861
 10
1192.2038941104
 20
-1093.5918335516
 10
1189.1456889139
 20
-1091.3257372408
 10
1185.8182066404
 20
-1089.1898197315
 10
1182.2380246391
 20
-1087.1947220573
 10
1178.4229791967
 20
-1085.3503836945
 10
1174.3920766776
 20
-1083.6659930441
 10
1170.1653988356
 20
-1082.1499416554
 10
1165.7640027669
 20
-1080.8097824203
 10
1161.2098160054
 20
-1079.6521919447
 10
1156.5255272805
 20
-1078.682937286
 10
1151.7344734829
 20
-1077.9068472223
 10
1146.8605234017
 20
-1077.3277881953
 10
1141.927958811
 20
-1076.9486450477
 10
1136.9613534995
 20
-1076.7713066518
 10
1131.9854508451
 20
-1076.7966564985
 10
1127.0250405443
 20
-1077.0245682962
 10
1122.104835112
 20
-1077.4539065996
 10
1117.2493467639
 20
-1078.0825324671
 10
1112.4827652989
 20
-1078.9073141162
 10
1107.828837586
 20
-1079.9241425261
 10
1103.3107492591
 20
-1081.1279519088
 10
1098.9510092067
 20
-1082.5127449467
 10
1094.7713374347
 20
-1084.0716226704
 10
1090.7925568576
 20
-1085.7968188295
 10
1087.0344895599
 20
-1087.6797385835
 10
1083.5158580441
 20
-1089.711001321
 10
1080.2541919552
 20
-1091.8804873931
 10
1077.2657407497
 20
-1094.1773885294
 10
1074.5653927412
 20
-1096.5902616839
 10
1072.1666009276
 20
-1099.107086044
 10
1070.081315969
 20
-1101.7153229173
 10
1068.3199266503
 20
-1104.4019781988
 10
1066.8912081244
 20
-1107.1536671072
 10
1065.8022781951
 20
-1109.9566808667
 10
1065.0585618566
 20
-1112.7970550038
 10
1064.6637642663
 20
-1115.6606389173
 10
1064.6198522859
 20
-1118.5331663763
 10
1064.9270446827
 20
-1121.4003265934
 10
1065.5838110396
 20
-1124.2478355206
 10
1066.5868793796
 20
-1127.0615070118
 10
1067.9312524668
 20
-1129.8273234971
 10
1069.610232702
 20
-1132.5315058179
 10
1071.6154554903
 20
-1135.1605818738
 10
1073.9369309124
 20
-1137.7014537403
 10
1076.5630934946
 20
-1140.1414629214
 10
1079.4808598271
 20
-1142.4684534143
 10
1082.6756937447
 20
-1144.6708322692
 10
1086.1316787456
 20
-1146.7376273456
 10
1089.8315972864
 20
-1148.6585419743
 10
1093.7570165589
 20
-1150.4240062553
 10
1097.8883803218
 20
-1152.0252247343
 10
1102.2051063287
 20
-1153.4542202214
 10
1106.6856888677
 20
-1154.7038735329
 10
1111.3078059021
 20
-1155.767958959
 10
1116.0484302772
 20
-1156.6411752796
 10
1120.8839444408
 20
-1157.3191721749
 10
1125.7902581047
 20
-1157.7985718983
 10
1130.7429282609
 20
-1158.0769861048
 10
1135.7172809559
 20
-1158.1530277486
 10
1140.6885342148
 20
-1158.0263179941
 10
1145.6319215038
 20
-1157.697488103
 10
1150.5228151162
 20
-1157.1681762892
 10
1155.336848866
 20
-1156.4410195576
 10
1160.0500394793
 20
-1155.5196405664
 10
1164.6389060774
 20
-1154.4086295794
 10
1169.0805871578
 20
-1153.1135215974
 10
1173.3529544888
 20
-1151.6407687834
 10
1177.4347233513
 20
-1149.9977083176
 10
1181.305558578
 20
-1148.1925258447
 10
1184.9461758626
 20
-1146.2342146931
  0
LWPOLYLINE
  5
CA
330
1F
100
AcDbEntity
  8
0
  6
Continuous
 62
     7
370
    25
100
AcDbPolyline
 90
       95
 70
   128
 43
0.0
 10
1191.6636902839
 20
-1150.1121532242
 10
1195.3157278028
 20
-1147.858025768
 10
1198.6988055925
 20
-1145.4681147196
 10
1201.7978140065
 20
-1142.953094002
 10
1204.5989121208
 20
-1140.3241963083
 10
1207.0895895513
 20
-1137.5931629336
 10
1209.258722328
 20
-1134.7721913361
 10
1211.0966225774
 20
-1131.8738806597
 10
1212.5950817907
 20
-1128.9111754634
 10
1213.7474074853
 20
-1125.8973079078
 10
1214.548453095
 20
-1122.8457386572
 10
1214.9946409556
 20
-1119.7700967605
 10
1215.0839782839
 20
-1116.6841187811
 10
1214.8160660775
 20
-1113.6015874457
 10
1214.1921008976
 20
-1110.5362700876
 10
1213.214869524
 20
-1107.5018571583
 10
1211.8887365092
 20
-1104.5119010825
 10
1210.2196246854
 20
-1101.5797557298
 10
1208.2149887109
 20
-1098.7185167732
 10
1205.8837817768
 20
-1095.9409632005
 10
1203.2364156191
 20
-1093.2595002401
 10
1200.2847140177
 20
-1090.6861039566
 10
1197.0418599885
 20
-1088.2322677625
 10
1193.5223369049
 20
-1085.9089510859
 10
1189.7418638112
 20
-1083.726530423
 10
1185.7173252181
 20
-1081.6947529944
 10
1181.4666956919
 20
-1079.8226932113
 10
1177.0089595759
 20
-1078.1187121471
 10
1172.3640262017
 20
-1076.5904201949
 10
1167.5526409694
 20
-1075.2446430775
 10
1162.5962926933
 20
-1074.0873913622
 10
1157.5171176281
 20
-1073.1238336162
 10
1152.3378006026
 20
-1072.3582733222
 10
1147.0814737039
 20
-1071.7941296583
 10
1141.7716129639
 20
-1071.4339222272
 10
1136.4319335097
 20
-1071.2792598026
 10
1131.086283646
 20
-1071.3308331444
 10
1125.7585383427
 20
-1071.5884119136
 10
1120.4724926037
 20
-1072.0508457009
 10
1115.2517551925
 20
-1072.7160691647
 10
1110.1196431897
 20
-1073.5811112556
 10
1105.0990778532
 20
-1074.6421084856
 10
1100.2124822468
 20
-1075.8943221835
 10
1095.4816810926
 20
-1077.3321596589
 10
1090.927803297
 20
-1078.9491991806
 10
1086.5711875836
 20
-1080.7382186577
 10
1082.4312916559
 20
-1082.6912278947
 10
1078.5266052941
 20
-1084.7995042784
 10
1074.8745677752
 20
-1087.0536317347
 10
1071.4914899855
 20
-1089.443542783
 10
1068.3924815715
 20
-1091.9585635006
 10
1065.5913834572
 20
-1094.5874611944
 10
1063.1007060266
 20
-1097.318494569
 10
1060.9315732499
 20
-1100.1394661666
 10
1059.0936730006
 20
-1103.037776843
 10
1057.5952137873
 20
-1106.0004820393
 10
1056.4428880927
 20
-1109.0143495948
 10
1055.641842483
 20
-1112.0659188455
 10
1055.1956546224
 20
-1115.1415607422
 10
1055.1063172941
 20
-1118.2275387216
 10
1055.3742295005
 20
-1121.310070057
 10
1055.9981946804
 20
-1124.3753874151
 10
1056.975426054
 20
-1127.4098003444
 10
1058.3015590688
 20
-1130.3997564202
 10
1059.9706708926
 20
-1133.3319017729
 10
1061.9753068671
 20
-1136.1931407295
 10
1064.3065138012
 20
-1138.9706943022
 10
1066.9538799589
 20
-1141.6521572626
 10
1069.9055815603
 20
-1144.2255535461
 10
1073.1484355895
 20
-1146.6793897402
 10
1076.6679586731
 20
-1149.0027064168
 10
1080.4484317668
 20
-1151.1851270796
 10
1084.4729703599
 20
-1153.2169045082
 10
1088.7235998861
 20
-1155.0889642914
 10
1093.1813360021
 20
-1156.7929453556
 10
1097.8262693763
 20
-1158.3212373078
 10
1102.6376546086
 20
-1159.6670144252
 10
1107.5940028847
 20
-1160.8242661405
 10
1112.6731779499
 20
-1161.7878238865
 10
1117.8524949754
 20
-1162.5533841805
 10
1123.1088218741
 20
-1163.1175278443
 10
1128.4186826141
 20
-1163.4777352755
 10
1133.7583620683
 20
-1163.6323977001
 10
1139.104011932
 20
-1163.5808243583
 10
1144.4317572352
 20
-1163.3232455891
 10
1149.7178029743
 20
-1162.8608118018
 10
1154.9385403855
 20
-1162.1955883379
 10
1160.0706523883
 20
-1161.330546247
 10
1165.0912177247
 20
-1160.2695490171
 10
1169.9778133312
 20
-1159.0173353192
 10
1174.7086144854
 20
-1157.5794978438
 10
1179.262492281
 20
-1155.962458322
 10
1183.6191079944
 20
-1154.173438845
 10
1187.7590039221
 20
-1152.220429608
 10
1191.6636902839
 20
-1150.1121532242
  0
ENDSEC
  0
SECTION
  2
OBJECTS
  0
DICTIONARY
  5
C
330
0
100
AcDbDictionary
281
     1
  3
ACAD_GROUP
350
D
  3
ACAD_LAYOUT
350
1A
  3
ACAD_MLINESTYLE
350
17
  3
ACAD_PLOTSETTINGS
350
19
  3
ACAD_PLOTSTYLENAME
350
E
  3
ACAD_SCALELIST
350
47
  3
DWGPROPS
350
CB
  0
DICTIONARY
  5
D
102
{ACAD_REACTORS
330
C
102
}
330
C
100
AcDbDictionary
281
     1
  0
DICTIONARY
  5
1A
102
{ACAD_REACTORS
330
C
102
}
330
C
100
AcDbDictionary
281
     1
  3
Layout1
350
1E
  3
Layout2
350
26
  3
Model
350
22
  0
DICTIONARY
  5
17
102
{ACAD_REACTORS
330
C
102
}
330
C
100
AcDbDictionary
281
     1
  3
Standard
350
18
  0
DICTIONARY
  5
19
102
{ACAD_REACTORS
330
C
102
}
330
C
100
AcDbDictionary
281
     1
  0
ACDBDICTIONARYWDFLT
  5
E
102
{ACAD_REACTORS
330
C
102
}
330
C
100
AcDbDictionary
281
     1
  3
Normal
350
F
100
AcDbDictionaryWithDefault
340
F
  0
DICTIONARY
  5
47
102
{ACAD_REACTORS
330
C
102
}
330
C
100
AcDbDictionary
281
     1
  3
A0
350
48
  3
A1
350
49
  3
A2
350
4A
  3
A3
350
4B
  3
A4
350
4C
  3
A5
350
4D
  3
A6
350
4E
  3
A7
350
4F
  3
A8
350
50
  3
A9
350
51
  3
B0
350
52
  3
B1
350
53
  3
B2
350
54
  3
B3
350
55
  3
B4
350
56
  3
B5
350
57
  3
B6
350
58
  3
B7
350
59
  3
B8
350
5A
  3
B9
350
5B
  3
C0
350
5C
  3
C1
350
5D
  3
C2
350
5E
  3
C3
350
5F
  3
C4
350
60
  3
C5
350
61
  3
C6
350
62
  3
C7
350
63
  3
C8
350
64
  3
C9
350
65
  3
D0
350
66
  3
D1
350
67
  3
D2
350
68
  0
XRECORD
  5
CB
102
{ACAD_REACTORS
330
C
102
}
330
C
100
AcDbXrecord
280
     1
  1
DWGPROPS COOKIE
  2

  3

  4

  6

  7

  8
b.kav
  9

300
=
301
=
302
=
303
=
304
=
305
=
306
=
307
=
308
=
309
=
 40
0.0
 41
2459921.411932824
 42
2459921.411933009
  1

 90
        0
  0
LAYOUT
  5
1E
102
{ACAD_REACTORS
330
1A
102
}
330
1A
100
AcDbPlotSettings
  1

  2
none_device
  4

  6

 40
0.0
 41
0.0
 42
0.0
 43
0.0
 44
0.0
 45
0.0
 46
0.0
 47
0.0
 48
0.0
 49
0.0
140
0.0
141
0.0
142
1.0
143
1.0
 70
   688
 72
     1
 73
     0
 74
     5
  7

 75
    16
147
1.0
148
0.0
149
0.0
100
AcDbLayout
  1
Layout1
 70
     1
 71
     1
 10
0.0
 20
0.0
 11
420.0
 21
297.0
 12
0.0
 22
0.0
 32
0.0
 14
1.0000000000E+20
 24
1.0000000000E+20
 34
1.0000000000E+20
 15
-1.0000000000E+20
 25
-1.0000000000E+20
 35
-1.0000000000E+20
146
0.0
 13
0.0
 23
0.0
 33
0.0
 16
1.0
 26
0.0
 36
0.0
 17
0.0
 27
1.0
 37
0.0
 76
     0
330
1B
  0
LAYOUT
  5
26
102
{ACAD_REACTORS
330
1A
102
}
330
1A
100
AcDbPlotSettings
  1

  2
none_device
  4

  6

 40
0.0
 41
0.0
 42
0.0
 43
0.0
 44
0.0
 45
0.0
 46
0.0
 47
0.0
 48
0.0
 49
0.0
140
0.0
141
0.0
142
1.0
143
1.0
 70
   688
 72
     1
 73
     0
 74
     5
  7

 75
    16
147
1.0
148
0.0
149
0.0
100
AcDbLayout
  1
Layout2
 70
     1
 71
     2
 10
0.0
 20
0.0
 11
0.0
 21
0.0
 12
0.0
 22
0.0
 32
0.0
 14
0.0
 24
0.0
 34
0.0
 15
0.0
 25
0.0
 35
0.0
146
0.0
 13
0.0
 23
0.0
 33
0.0
 16
1.0
 26
0.0
 36
0.0
 17
0.0
 27
1.0
 37
0.0
 76
     0
330
23
  0
LAYOUT
  5
22
102
{ACAD_REACTORS
330
1A
102
}
330
1A
100
AcDbPlotSettings
  1

  2
none_device
  4
Letter_(8.50_x_11.00_Inches)
  6

 40
6.35
 41
6.35
 42
6.35000508
 43
6.35000508
 44
215.9
 45
279.4
 46
0.0
 47
0.0
 48
0.0
 49
0.0
140
0.0
141
0.0
142
1.0
143
1.0
 70
  1712
 72
     1
 73
     0
 74
     0
  7

 75
     0
147
1.0
148
0.0
149
0.0
100
AcDbLayout
  1
Model
 70
     1
 71
     0
 10
0.0
 20
0.0
 11
279.4
 21
215.9
 12
0.0
 22
0.0
 32
0.0
 14
0.0
 24
0.0
 34
0.0
 15
279.4
 25
215.9
 35
0.0
146
0.0
 13
0.0
 23
0.0
 33
0.0
 16
1.0
 26
0.0
 36
0.0
 17
0.0
 27
1.0
 37
0.0
 76
     0
330
1F
331
29
  0
MLINESTYLE
  5
18
102
{ACAD_REACTORS
330
17
102
}
330
17
100
AcDbMlineStyle
  2
Standard
 70
     0
  3

 62
   256
 51
90.0
 52
90.0
 71
     2
 49
0.5
 62
   256
  6
BYLAYER
 49
-0.5
 62
   256
  6
BYLAYER
  0
ACDBPLACEHOLDER
  5
F
102
{ACAD_REACTORS
330
E
102
}
330
E
  0
SCALE
  5
48
102
{ACAD_REACTORS
330
47
102
}
330
47
100
AcDbScale
 70
     0
300
1:1
140
1.0
141
1.0
290
     1
  0
SCALE
  5
49
102
{ACAD_REACTORS
330
47
102
}
330
47
100
AcDbScale
 70
     0
300
1:2
140
1.0
141
2.0
290
     0
  0
SCALE
  5
4A
102
{ACAD_REACTORS
330
47
102
}
330
47
100
AcDbScale
 70
     0
300
1:4
140
1.0
141
4.0
290
     0
  0
SCALE
  5
4B
102
{ACAD_REACTORS
330
47
102
}
330
47
100
AcDbScale
 70
     0
300
1:5
140
1.0
141
5.0
290
     0
  0
SCALE
  5
4C
102
{ACAD_REACTORS
330
47
102
}
330
47
100
AcDbScale
 70
     0
300
1:8
140
1.0
141
8.0
290
     0
  0
SCALE
  5
4D
102
{ACAD_REACTORS
330
47
102
}
330
47
100
AcDbScale
 70
     0
300
1:10
140
1.0
141
10.0
290
     0
  0
SCALE
  5
4E
102
{ACAD_REACTORS
330
47
102
}
330
47
100
AcDbScale
 70
     0
300
1:16
140
1.0
141
16.0
290
     0
  0
SCALE
  5
4F
102
{ACAD_REACTORS
330
47
102
}
330
47
100
AcDbScale
 70
     0
300
1:20
140
1.0
141
20.0
290
     0
  0
SCALE
  5
50
102
{ACAD_REACTORS
330
47
102
}
330
47
100
AcDbScale
 70
     0
300
1:30
140
1.0
141
30.0
290
     0
  0
SCALE
  5
51
102
{ACAD_REACTORS
330
47
102
}
330
47
100
AcDbScale
 70
     0
300
1:40
140
1.0
141
40.0
290
     0
  0
SCALE
  5
52
102
{ACAD_REACTORS
330
47
102
}
330
47
100
AcDbScale
 70
     0
300
1:50
140
1.0
141
50.0
290
     0
  0
SCALE
  5
53
102
{ACAD_REACTORS
330
47
102
}
330
47
100
AcDbScale
 70
     0
300
1:100
140
1.0
141
100.0
290
     0
  0
SCALE
  5
54
102
{ACAD_REACTORS
330
47
102
}
330
47
100
AcDbScale
 70
     0
300
2:1
140
2.0
141
1.0
290
     0
  0
SCALE
  5
55
102
{ACAD_REACTORS
330
47
102
}
330
47
100
AcDbScale
 70
     0
300
4:1
140
4.0
141
1.0
290
     0
  0
SCALE
  5
56
102
{ACAD_REACTORS
330
47
102
}
330
47
100
AcDbScale
 70
     0
300
8:1
140
8.0
141
1.0
290
     0
  0
SCALE
  5
57
102
{ACAD_REACTORS
330
47
102
}
330
47
100
AcDbScale
 70
     0
300
10:1
140
10.0
141
1.0
290
     0
  0
SCALE
  5
58
102
{ACAD_REACTORS
330
47
102
}
330
47
100
AcDbScale
 70
     0
300
100:1
140
100.0
141
1.0
290
     0
  0
SCALE
  5
59
102
{ACAD_REACTORS
330
47
102
}
330
47
100
AcDbScale
 70
     0
300
1/128" = 1'-0"
140
0.0078125
141
12.0
290
     0
  0
SCALE
  5
5A
102
{ACAD_REACTORS
330
47
102
}
330
47
100
AcDbScale
 70
     0
300
1/64" = 1'-0"
140
0.015625
141
12.0
290
     0
  0
SCALE
  5
5B
102
{ACAD_REACTORS
330
47
102
}
330
47
100
AcDbScale
 70
     0
300
1/32" = 1'-0"
140
0.03125
141
12.0
290
     0
  0
SCALE
  5
5C
102
{ACAD_REACTORS
330
47
102
}
330
47
100
AcDbScale
 70
     0
300
1/16" = 1'-0"
140
0.0625
141
12.0
290
     0
  0
SCALE
  5
5D
102
{ACAD_REACTORS
330
47
102
}
330
47
100
AcDbScale
 70
     0
300
3/32" = 1'-0"
140
0.09375
141
12.0
290
     0
  0
SCALE
  5
5E
102
{ACAD_REACTORS
330
47
102
}
330
47
100
AcDbScale
 70
     0
300
1/8" = 1'-0"
140
0.125
141
12.0
290
     0
  0
SCALE
  5
5F
102
{ACAD_REACTORS
330
47
102
}
330
47
100
AcDbScale
 70
     0
300
3/16" = 1'-0"
140
0.1875
141
12.0
290
     0
  0
SCALE
  5
60
102
{ACAD_REACTORS
330
47
102
}
330
47
100
AcDbScale
 70
     0
300
1/4" = 1'-0"
140
0.25
141
12.0
290
     0
  0
SCALE
  5
61
102
{ACAD_REACTORS
330
47
102
}
330
47
100
AcDbScale
 70
     0
300
3/8" = 1'-0"
140
0.375
141
12.0
290
     0
  0
SCALE
  5
62
102
{ACAD_REACTORS
330
47
102
}
330
47
100
AcDbScale
 70
     0
300
1/2" = 1'-0"
140
0.5
141
12.0
290
     0
  0
SCALE
  5
63
102
{ACAD_REACTORS
330
47
102
}
330
47
100
AcDbScale
 70
     0
300
3/4" = 1'-0"
140
0.75
141
12.0
290
     0
  0
SCALE
  5
64
102
{ACAD_REACTORS
330
47
102
}
330
47
100
AcDbScale
 70
     0
300
1" = 1'-0"
140
1.0
141
12.0
290
     0
  0
SCALE
  5
65
102
{ACAD_REACTORS
330
47
102
}
330
47
100
AcDbScale
 70
     0
300
1-1/2" = 1'-0"
140
1.5
141
12.0
290
     0
  0
SCALE
  5
66
102
{ACAD_REACTORS
330
47
102
}
330
47
100
AcDbScale
 70
     0
300
3" = 1'-0"
140
3.0
141
12.0
290
     0
  0
SCALE
  5
67
102
{ACAD_REACTORS
330
47
102
}
330
47
100
AcDbScale
 70
     0
300
6" = 1'-0"
140
6.0
141
12.0
290
     0
  0
SCALE
  5
68
102
{ACAD_REACTORS
330
47
102
}
330
47
100
AcDbScale
 70
     0
300
1'-0" = 1'-0"
140
12.0
141
12.0
290
     0
  0
ENDSEC
  0
EOF
